  0
SECTION
  2
HEADER
  9
$ACADVER
  1
AC1009
  9
$INSBASE
 10
-90.72857438636036
 20
125.0953940851062
 30
0.0
  9
$EXTMIN
 10
-91.02756034628922
 20
125.0953940851062
 30
0.0
  9
$EXTMAX
 10
200.5412058087124
 20
315.3502156320518
 30
0.0
  9
$LIMMIN
 10
0.0
 20
0.0
  9
$LIMMAX
 10
420.0
 20
297.0
  9
$ORTHOMODE
 70
     1
  9
$REGENMODE
 70
     1
  9
$FILLMODE
 70
     1
  9
$QTEXTMODE
 70
     0
  9
$MIRRTEXT
 70
     0
  9
$DRAGMODE
 70
     2
  9
$LTSCALE
 40
1.0
  9
$OSMODE
 70
     1
  9
$ATTMODE
 70
     1
  9
$TEXTSIZE
 40
3.5
  9
$TRACEWID
 40
0.1
  9
$TEXTSTYLE
  7
STANDARD
  9
$CLAYER
  8
ITEM_HILFE
  9
$CELTYPE
  6
BYLAYER
  9
$CECOLOR
 62
   256
  9
$DIMSCALE
 40
1.0
  9
$DIMASZ
 40
2.0
  9
$DIMEXO
 40
1.0
  9
$DIMDLI
 40
8.0
  9
$DIMRND
 40
0.0
  9
$DIMDLE
 40
0.0
  9
$DIMEXE
 40
2.0
  9
$DIMTP
 40
0.1
  9
$DIMTM
 40
0.1
  9
$DIMTXT
 40
3.5
  9
$DIMCEN
 40
2.0
  9
$DIMTSZ
 40
0.0
  9
$DIMTOL
 70
     0
  9
$DIMLIM
 70
     0
  9
$DIMTIH
 70
     0
  9
$DIMTOH
 70
     0
  9
$DIMSE1
 70
     0
  9
$DIMSE2
 70
     0
  9
$DIMTAD
 70
     1
  9
$DIMZIN
 70
     8
  9
$DIMBLK
  1

  9
$DIMASO
 70
     1
  9
$DIMSHO
 70
     1
  9
$DIMPOST
  1

  9
$DIMAPOST
  1

  9
$DIMALT
 70
     0
  9
$DIMALTD
 70
     2
  9
$DIMALTF
 40
25.39999999999999
  9
$DIMLFAC
 40
1.0
  9
$DIMTOFL
 70
     1
  9
$DIMTVP
 40
0.0
  9
$DIMTIX
 70
     0
  9
$DIMSOXD
 70
     0
  9
$DIMSAH
 70
     0
  9
$DIMBLK1
  1

  9
$DIMBLK2
  1

  9
$DIMSTYLE
  2
*UNNAMED
  9
$DIMCLRD
 70
     0
  9
$DIMCLRE
 70
     0
  9
$DIMCLRT
 70
     0
  9
$DIMTFAC
 40
1.0
  9
$DIMGAP
 40
0.09
  9
$LUNITS
 70
     2
  9
$LUPREC
 70
     3
  9
$SKETCHINC
 40
0.1
  9
$FILLETRAD
 40
1.5
  9
$AUNITS
 70
     0
  9
$AUPREC
 70
     1
  9
$MENU
  1

  9
$ELEVATION
 40
0.0
  9
$PELEVATION
 40
0.0
  9
$THICKNESS
 40
0.0
  9
$LIMCHECK
 70
     0
  9
$BLIPMODE
 70
     0
  9
$CHAMFERA
 40
5.0
  9
$CHAMFERB
 40
5.0
  9
$SKPOLY
 70
     1
  9
$TDCREATE
 40
2448876.597491435
  9
$TDUPDATE
 40
2449393.450167708
  9
$TDINDWG
 40
0.0179053241
  9
$TDUSRTIMER
 40
0.0179053241
  9
$USRTIMER
 70
     1
  9
$ANGBASE
 50
0.0
  9
$ANGDIR
 70
     0
  9
$PDMODE
 70
     3
  9
$PDSIZE
 40
0.0
  9
$PLINEWID
 40
0.0
  9
$COORDS
 70
     2
  9
$SPLFRAME
 70
     0
  9
$SPLINETYPE
 70
     6
  9
$SPLINESEGS
 70
     8
  9
$ATTDIA
 70
     1
  9
$ATTREQ
 70
     1
  9
$HANDLING
 70
     0
  9
$HANDSEED
  5
715
  9
$SURFTAB1
 70
     6
  9
$SURFTAB2
 70
     6
  9
$SURFTYPE
 70
     6
  9
$SURFU
 70
     6
  9
$SURFV
 70
     6
  9
$UCSNAME
  2

  9
$UCSORG
 10
0.0
 20
0.0
 30
0.0
  9
$UCSXDIR
 10
1.0
 20
0.0
 30
0.0
  9
$UCSYDIR
 10
0.0
 20
1.0
 30
0.0
  9
$PUCSNAME
  2

  9
$PUCSORG
 10
0.0
 20
0.0
 30
0.0
  9
$PUCSXDIR
 10
1.0
 20
0.0
 30
0.0
  9
$PUCSYDIR
 10
0.0
 20
1.0
 30
0.0
  9
$USERI1
 70
     0
  9
$USERI2
 70
     3
  9
$USERI3
 70
    15
  9
$USERI4
 70
     0
  9
$USERI5
 70
     0
  9
$USERR1
 40
1.0
  9
$USERR2
 40
1.0
  9
$USERR3
 40
0.0
  9
$USERR4
 40
1.0
  9
$USERR5
 40
0.0
  9
$WORLDVIEW
 70
     5
  9
$SHADEDGE
 70
     3
  9
$SHADEDIF
 70
    70
  9
$TILEMODE
 70
     1
  9
$MAXACTVP
 70
    16
  9
$PINSBASE
 10
0.0
 20
0.0
 30
0.0
  9
$PLIMCHECK
 70
     0
  9
$PEXTMIN
 10
1.000000000000000E+20
 20
1.000000000000000E+20
 30
1.000000000000000E+20
  9
$PEXTMAX
 10
-1.000000000000000E+20
 20
-1.000000000000000E+20
 30
-1.000000000000000E+20
  9
$PLIMMIN
 10
0.0
 20
0.0
  9
$PLIMMAX
 10
12.0
 20
9.0
  9
$UNITMODE
 70
     0
  9
$VISRETAIN
 70
     0
  9
$PLINEGEN
 70
     0
  9
$PSLTSCALE
 70
     0
  9
$TREEDEPTH
 70
  3020
  9
$DWGCODEPAGE
  3
undefined
  0
ENDSEC
  0
SECTION
  2
TABLES
  0
TABLE
  2
VPORT
 70
     2
  0
VPORT
  2
*ACTIVE
 70
     0
 10
0.0
 20
0.0
 11
1.0
 21
1.0
 12
54.90631571117604
 22
239.2583375937682
 13
0.0
 23
0.0
 14
1.0
 24
1.0
 15
10.0
 25
10.0
 16
0.0
 26
0.0
 36
1.0
 17
0.0
 27
0.0
 37
0.0
 40
228.325887017324
 41
1.275675675675675
 42
50.0
 43
0.0
 44
0.0
 50
0.0
 51
0.0
 71
     0
 72
   100
 73
     1
 74
     0
 75
     0
 76
     0
 77
     0
 78
     0
  0
ENDTAB
  0
TABLE
  2
LTYPE
 70
     4
  0
LTYPE
  2
CONTINUOUS
 70
    64
  3
Solid line
 72
    65
 73
     0
 40
0.0
  0
LTYPE
  2
GEN
 70
    64
  3
----------------------
 72
    65
 73
     2
 40
10000000000.0
 49
0.0
 49
10000000000.0
  0
LTYPE
  2
ITEM-STRICHGR
 70
     0
  3
-- -- -- -- -- 
 72
    65
 73
     2
 40
6.25
 49
5.0
 49
-1.25
  0
LTYPE
  2
ITEM-STRICHPGR
 70
    64
  3
____ . ____ . ____ . ____ . ____ . ____ . ____
 72
    65
 73
     4
 40
15.0
 49
10.0
 49
-2.5
 49
0.0
 49
-2.5
  0
ENDTAB
  0
TABLE
  2
LAYER
 70
     5
  0
LAYER
  2
0
 70
    64
 62
     7
  6
GEN
  0
LAYER
  2
ITEM_50
 70
    64
 62
     7
  6
CONTINUOUS
  0
LAYER
  2
ITEM_STPG
 70
    64
 62
     4
  6
ITEM-STRICHPGR
  0
LAYER
  2
ITEM_25
 70
     0
 62
     3
  6
CONTINUOUS
  0
LAYER
  2
ITEM_HILFE
 70
    64
 62
     3
  6
CONTINUOUS
  0
ENDTAB
  0
TABLE
  2
STYLE
 70
     1
  0
STYLE
  2
STANDARD
 70
     0
 40
0.0
 41
1.0
 50
0.0
 71
     0
 42
3.5
  3
ISO8
  4

  0
ENDTAB
  0
TABLE
  2
VIEW
 70
     0
  0
ENDTAB
  0
TABLE
  2
UCS
 70
     0
  0
ENDTAB
  0
TABLE
  2
APPID
 70
     1
  0
APPID
  2
ACAD
 70
    64
  0
ENDTAB
  0
TABLE
  2
DIMSTYLE
 70
     0
  0
ENDTAB
  0
ENDSEC
  0
SECTION
  2
BLOCKS
  0
BLOCK
  8
0
  2
37353B
 70
    64
 10
0.0
 20
0.0
 30
0.0
  3
37353B
  0
INSERT
  8
0
  2
NUT8NB
 10
0.0
 20
0.0
 30
0.0
 41
0.5
 42
0.5
 43
0.5
  0
ENDBLK
  8
0
  0
BLOCK
  8
0
  2
NUT8NB
 70
    64
 10
0.0
 20
0.0
 30
0.0
  3
NUT8NB
  0
ENDBLK
  8
0
  0
BLOCK
  8
0
  2
37354B
 70
    64
 10
0.0
 20
0.0
 30
0.0
  3
37354B
  0
ENDBLK
  8
0
  0
ENDSEC
  0
SECTION
  2
ENTITIES
  0
INSERT
  8
0
  2
37353B
 10
69.64077699999999
 20
92.19489199999999
 30
0.0
  0
INSERT
  8
0
  2
37354B
 10
246.903614
 20
191.737952
 30
0.0
  0
ARC
  8
ITEM_50
 10
81.89703
 20
227.3045079999999
 30
0.0
 40
2.0
 50
270.0
 51
354.0304449999999
  0
LINE
  8
ITEM_50
 10
70.76146199999999
 20
247.204508
 30
0.0
 11
70.76146199999999
 21
226.7875369999999
 31
0.0
  0
LINE
  8
ITEM_50
 10
75.76146199999999
 20
241.3045079999999
 30
0.0
 11
82.60377099999999
 21
241.3045079999999
 31
0.0
  0
ARC
  8
ITEM_50
 10
82.60016899999999
 20
241.6479769999999
 30
0.0
 40
0.34347
 50
270.6008879999999
 51
54.73561
  0
ARC
  8
ITEM_50
 10
86.92275499999999
 20
241.6479769999999
 30
0.0
 40
0.34347
 50
125.2643999999999
 51
270.0003639999999
  0
LINE
  8
ITEM_50
 10
86.76146199999999
 20
248.704508
 30
0.0
 11
86.76146199999999
 21
247.4540529999999
 31
0.0
  0
LINE
  8
ITEM_50
 10
82.76146199999999
 20
248.704508
 30
0.0
 11
82.76146199999999
 21
247.4540529999999
 31
0.0
  0
LINE
  8
ITEM_50
 10
82.76146199999999
 20
248.704508
 30
0.0
 11
86.76146199999999
 21
248.704508
 31
0.0
  0
ARC
  8
ITEM_50
 10
75.76146199999999
 20
227.3045079999999
 30
0.0
 40
2.0
 50
180.0
 51
270.0
  0
LINE
  8
ITEM_50
 10
81.89703
 20
225.3045079999999
 30
0.0
 11
75.76146199999999
 21
225.3045079999999
 31
0.0
  0
ARC
  8
ITEM_50
 10
84.76146199999999
 20
244.704508
 30
0.0
 40
3.399999999999999
 50
126.031879
 51
234.73561
  0
ARC
  8
ITEM_50
 10
88.523041
 20
240.3045079999999
 30
0.0
 40
1.0
 50
319.4583979999999
 51
90.0
  0
ARC
  8
ITEM_50
 10
84.76146199999999
 20
244.704508
 30
0.0
 40
3.399999999999999
 50
305.2643889999999
 51
53.96812099999999
  0
ARC
  8
ITEM_50
 10
75.76146199999999
 20
239.3045079999999
 30
0.0
 40
2.0
 50
90.0
 51
180.0
  0
LINE
  8
ITEM_50
 10
73.76146199999999
 20
239.3045079999999
 30
0.0
 11
73.76146199999999
 21
227.3045079999999
 31
0.0
  0
LINE
  8
ITEM_50
 10
86.922757
 20
241.3045079999999
 30
0.0
 11
88.523041
 21
241.3045079999999
 31
0.0
  0
ARC
  8
ITEM_50
 10
106.7614619999999
 20
224.704508
 30
0.0
 40
23.0
 50
139.4583979999999
 51
174.0304449999999
  0
ARC
  8
ITEM_50
 10
86.76146199999999
 20
195.704508
 30
0.0
 40
2.0
 50
180.0
 51
270.0
  0
ARC
  8
ITEM_50
 10
86.76146199999999
 20
203.9566309999999
 30
0.0
 40
2.0
 50
145.0847939999999
 51
180.0
  0
LINE
  8
ITEM_50
 10
86.76146199999999
 20
193.704508
 30
0.0
 11
94.27820099999999
 21
193.704508
 31
0.0
  0
LINE
  8
ITEM_50
 10
84.76146199999999
 20
203.9566309999999
 30
0.0
 11
84.76146199999999
 21
195.704508
 31
0.0
  0
ARC
  8
ITEM_50
 10
62.161462
 20
221.1275369999999
 30
0.0
 40
28.0
 50
325.0847939999999
 51
332.5971
  0
ARC
  8
ITEM_50
 10
94.27820099999999
 20
195.704508
 30
0.0
 40
2.0
 50
270.0
 51
333.042251
  0
ARC
  8
ITEM_50
 10
97.965821
 20
201.3028689999999
 30
0.0
 40
2.0
 50
320.2122529999999
 51
69.400979
  0
ARC
  8
ITEM_50
 10
88.795225
 20
207.320195
 30
0.0
 40
2.0
 50
44.056908
 51
152.5971
  0
ARC
  8
ITEM_50
 10
121.018433
 20
182.104508
 30
0.0
 40
28.0
 50
140.212253
 51
153.0422509999999
  0
ARC
  8
ITEM_50
 10
106.7614619999999
 20
224.704508
 30
0.0
 40
23.0
 50
224.0569079999999
 51
249.4009789999999
  0
LINE
  8
ITEM_50
 10
81.05013697863785
 20
250.704508
 30
0.0
 11
80.76146199999999
 21
250.204508
 31
0.0
  0
LINE
  8
ITEM_50
 10
80.76146199999999
 20
250.204508
 30
0.0
 11
80.47278602963511
 21
250.704508
 31
0.0
  0
LINE
  8
ITEM_50
 10
130.2614619999999
 20
200.704508
 30
0.0
 11
130.7614619999999
 21
200.4158320296351
 31
0.0
  0
LINE
  8
ITEM_50
 10
130.7614619999999
 20
200.9931829786378
 30
0.0
 11
130.2614619999999
 21
200.704508
 31
0.0
  0
LINE
  8
ITEM_50
 10
114.7614619999999
 20
192.204508
 30
0.0
 11
114.7614619999999
 21
194.204508
 31
0.0
  0
ARC
  8
ITEM_50
 10
115.7614619999999
 20
194.204508
 30
0.0
 40
1.0
 50
90.0
 51
180.0
  0
LINE
  8
ITEM_50
 10
115.7614619999999
 20
195.204508
 30
0.0
 11
119.7614619999999
 21
195.204508
 31
0.0
  0
ARC
  8
ITEM_50
 10
119.7614619999999
 20
196.3159259999999
 30
0.0
 40
1.0
 50
0.0
 51
36.30918799999999
  0
ARC
  8
ITEM_50
 10
119.7614619999999
 20
196.204508
 30
0.0
 40
1.0
 50
270.0
 51
0.0
  0
ARC
  8
ITEM_50
 10
100.4214619999999
 20
182.104508
 30
0.0
 40
25.0
 50
36.30918799999999
 51
53.130102
  0
ARC
  8
ITEM_50
 10
113.0214619999999
 20
198.9045079999999
 30
0.0
 40
4.0
 50
53.130102
 51
90.0
  0
LINE
  8
ITEM_50
 10
108.5014619999999
 20
202.9045079999999
 30
0.0
 11
113.0214619999999
 21
202.9045079999999
 31
0.0
  0
ARC
  8
ITEM_50
 10
108.5014619999999
 20
198.9045079999999
 30
0.0
 40
4.0
 50
90.0
 51
126.869898
  0
ARC
  8
ITEM_50
 10
101.7614619999999
 20
196.3159259999999
 30
0.0
 40
1.0
 50
143.6908119999999
 51
180.0
  0
LINE
  8
ITEM_50
 10
100.7614619999999
 20
196.204508
 30
0.0
 11
100.7614619999999
 21
196.3159259999999
 31
0.0
  0
ARC
  8
ITEM_50
 10
121.1014619999999
 20
182.104508
 30
0.0
 40
25.0
 50
126.869898
 51
143.6908119999999
  0
ARC
  8
ITEM_50
 10
101.7614619999999
 20
196.204508
 30
0.0
 40
1.0
 50
180.0
 51
270.0
  0
LINE
  8
ITEM_50
 10
105.7614619999999
 20
195.204508
 30
0.0
 11
101.7614619999999
 21
195.204508
 31
0.0
  0
ARC
  8
ITEM_50
 10
105.7614619999999
 20
194.204508
 30
0.0
 40
1.0
 50
0.0
 51
90.0
  0
LINE
  8
ITEM_50
 10
106.7614619999999
 20
192.204508
 30
0.0
 11
106.7614619999999
 21
194.204508
 31
0.0
  0
LINE
  8
ITEM_50
 10
72.26146199999999
 20
206.704508
 30
0.0
 11
74.26146199999999
 21
206.704508
 31
0.0
  0
ARC
  8
ITEM_50
 10
74.26146199999999
 20
205.704508
 30
0.0
 40
1.0
 50
0.0
 51
90.0
  0
LINE
  8
ITEM_50
 10
75.26146199999999
 20
205.704508
 30
0.0
 11
75.26146199999999
 21
201.704508
 31
0.0
  0
ARC
  8
ITEM_50
 10
76.37287999999999
 20
201.704508
 30
0.0
 40
1.0
 50
270.0
 51
306.309188
  0
ARC
  8
ITEM_50
 10
76.26146199999999
 20
201.704508
 30
0.0
 40
1.0
 50
180.0
 51
270.0
  0
ARC
  8
ITEM_50
 10
62.161462
 20
221.044508
 30
0.0
 40
25.0
 50
306.309188
 51
323.130102
  0
ARC
  8
ITEM_50
 10
78.96146199999999
 20
208.444508
 30
0.0
 40
4.0
 50
323.130102
 51
0.0
  0
LINE
  8
ITEM_50
 10
82.96146199999999
 20
212.964508
 30
0.0
 11
82.96146199999999
 21
208.444508
 31
0.0
  0
ARC
  8
ITEM_50
 10
78.96146199999999
 20
212.964508
 30
0.0
 40
4.0
 50
0.0
 51
36.86989799999999
  0
ARC
  8
ITEM_50
 10
76.37287999999999
 20
219.704508
 30
0.0
 40
1.0
 50
53.690812
 51
90.0
  0
LINE
  8
ITEM_50
 10
76.26146199999999
 20
220.704508
 30
0.0
 11
76.37287999999999
 21
220.704508
 31
0.0
  0
ARC
  8
ITEM_50
 10
62.161462
 20
200.364508
 30
0.0
 40
25.0
 50
36.86989799999999
 51
53.690812
  0
ARC
  8
ITEM_50
 10
76.26146199999999
 20
219.704508
 30
0.0
 40
1.0
 50
90.0
 51
180.0
  0
LINE
  8
ITEM_50
 10
75.26146199999999
 20
215.704508
 30
0.0
 11
75.26146199999999
 21
219.704508
 31
0.0
  0
ARC
  8
ITEM_50
 10
74.26146199999999
 20
215.704508
 30
0.0
 40
1.0
 50
270.0
 51
0.0
  0
LINE
  8
ITEM_50
 10
72.26146199999999
 20
214.704508
 30
0.0
 11
74.26146199999999
 21
214.704508
 31
0.0
  0
ARC
  8
ITEM_50
 10
74.26146199999999
 20
247.204508
 30
0.0
 40
3.5
 50
90.0
 51
180.0
  0
LINE
  8
ITEM_50
 10
70.76146199999999
 20
194.204508
 30
0.0
 11
70.76146199999999
 21
199.0375369999999
 31
0.0
  0
ARC
  8
ITEM_50
 10
74.26146199999999
 20
194.204508
 30
0.0
 40
3.5
 50
180.0
 51
270.0
  0
ARC
  8
ITEM_50
 10
127.2614619999999
 20
194.204508
 30
0.0
 40
3.5
 50
270.0
 51
0.0
  0
ARC
  8
ITEM_50
 10
127.2614619999999
 20
247.204508
 30
0.0
 40
3.5
 50
0.0
 51
90.0
  0
CIRCLE
  8
ITEM_50
 10
124.7614619999999
 20
204.704508
 30
0.0
 40
3.399999999999999
  0
CIRCLE
  8
ITEM_50
 10
124.7614619999999
 20
244.704508
 30
0.0
 40
3.399999999999999
  0
LINE
  8
ITEM_STPG
 10
106.7614619999999
 20
242.5913089999999
 30
0.0
 11
106.7614619999999
 21
206.2165559999999
 31
0.0
  0
LINE
  8
ITEM_STPG
 10
106.7614619999999
 20
242.5913089999999
 30
0.0
 11
106.7614619999999
 21
206.2165559999999
 31
0.0
  0
LINE
  8
ITEM_STPG
 10
88.874661
 20
224.704508
 30
0.0
 11
124.9561200559365
 21
224.704508
 31
0.0
  0
LINE
  8
ITEM_50
 10
70.76146199999999
 20
130.0953940851062
 30
0.0
 11
130.7614619999999
 21
130.0953940851062
 31
0.0
  0
LINE
  8
ITEM_50
 10
130.7614619999999
 20
130.0953940851062
 30
0.0
 11
130.7614619999999
 21
170.0953940851062
 31
0.0
  0
LINE
  8
ITEM_50
 10
130.7614619999999
 20
170.0953940851062
 30
0.0
 11
70.76146199999999
 21
170.0953940851062
 31
0.0
  0
LINE
  8
ITEM_STPG
 10
106.7614619999999
 20
125.0953940851062
 30
0.0
 11
106.7614619999999
 21
172.3635653172744
 31
0.0
  0
CIRCLE
  8
ITEM_50
 10
106.7614619999999
 20
224.704508
 30
0.0
 40
14.0
  0
CIRCLE
  8
ITEM_50
 10
106.7614619999999
 20
224.704508
 30
0.0
 40
15.0
  0
CIRCLE
  8
ITEM_50
 10
106.7614619999999
 20
224.704508
 30
0.0
 40
10.0
  0
LINE
  8
ITEM_50
 10
127.2614619999999
 20
250.704508
 30
0.0
 11
81.05013697863786
 21
250.704508
 31
0.0
  0
LINE
  8
ITEM_50
 10
80.4727860296351
 20
250.704508
 30
0.0
 11
74.26146199999999
 21
250.704508
 31
0.0
  0
LINE
  8
ITEM_50
 10
130.7614619999999
 20
247.204508
 30
0.0
 11
130.7614619999999
 21
200.9931829786378
 31
0.0
  0
LINE
  8
ITEM_50
 10
130.7614619999999
 20
200.4158320296351
 30
0.0
 11
130.7614619999999
 21
194.204508
 31
0.0
  0
LINE
  8
ITEM_50
 10
70.76146199999999
 20
247.204508
 30
0.0
 11
70.76146199999999
 21
216.204508
 31
0.0
  0
LINE
  8
ITEM_50
 10
70.76146199999999
 20
205.204508
 30
0.0
 11
70.761462
 21
194.204508
 31
0.0
  0
LINE
  8
ITEM_50
 10
74.26146199999999
 20
190.704508
 30
0.0
 11
105.2614619999999
 21
190.704508
 31
0.0
  0
LINE
  8
ITEM_50
 10
116.2614619999999
 20
190.704508
 30
0.0
 11
127.2614619999999
 21
190.704508
 31
0.0
  0
ARC
  8
ITEM_50
 10
72.26146199999999
 20
205.204508
 30
0.0
 40
1.5
 50
90.0
 51
180.0
  0
ARC
  8
ITEM_50
 10
72.26146199999999
 20
216.204508
 30
0.0
 40
1.5
 50
180.0
 51
270.0
  0
ARC
  8
ITEM_50
 10
105.2614619999999
 20
192.204508
 30
0.0
 40
1.5
 50
270.0
 51
0.0
  0
ARC
  8
ITEM_50
 10
116.2614619999999
 20
192.204508
 30
0.0
 40
1.5
 50
180.0
 51
270.0
  0
LINE
  8
ITEM_50
 10
80.4727860296351
 20
170.0953940851062
 30
0.0
 11
80.4727860296351
 21
130.0953940851062
 31
0.0
  0
LINE
  8
ITEM_50
 10
81.05013697863786
 20
170.0953940851062
 30
0.0
 11
81.05013697863786
 21
130.0953940851062
 31
0.0
  0
LINE
  8
ITEM_50
 10
155.5412058087124
 20
250.704508
 30
0.0
 11
195.5412058087124
 21
250.704508
 31
0.0
  0
LINE
  8
ITEM_50
 10
195.5412058087124
 20
250.704508
 30
0.0
 11
195.5412058087124
 21
190.704508
 31
0.0
  0
LINE
  8
ITEM_50
 10
155.5412058087124
 20
190.704508
 30
0.0
 11
195.5412058087124
 21
190.704508
 31
0.0
  0
LINE
  8
ITEM_50
 10
155.5412058087124
 20
250.704508
 30
0.0
 11
155.5412058087124
 21
190.704508
 31
0.0
  0
LINE
  8
ITEM_50
 10
41.88524768543437
 20
250.704508
 30
0.0
 11
41.88524768543437
 21
190.704508
 31
0.0
  0
LINE
  8
ITEM_50
 10
41.88524768543437
 20
190.704508
 30
0.0
 11
1.885247685434372
 21
190.704508
 31
0.0
  0
LINE
  8
ITEM_50
 10
1.885247685434372
 20
250.704508
 30
0.0
 11
1.885247685434372
 21
190.704508
 31
0.0
  0
LINE
  8
ITEM_50
 10
41.88524768543437
 20
250.704508
 30
0.0
 11
1.885247685434372
 21
250.704508
 31
0.0
  0
LINE
  8
ITEM_50
 10
130.7614619999999
 20
271.3136219148938
 30
0.0
 11
70.761462
 21
271.3136219148938
 31
0.0
  0
LINE
  8
ITEM_50
 10
130.7614619999999
 20
311.3136219148938
 30
0.0
 11
130.7614619999999
 21
271.3136219148938
 31
0.0
  0
LINE
  8
ITEM_50
 10
70.761462
 20
311.3136219148938
 30
0.0
 11
130.7614619999999
 21
311.3136219148938
 31
0.0
  0
LINE
  8
ITEM_50
 10
41.88524768543437
 20
200.9931829786378
 30
0.0
 11
1.885247685434372
 21
200.9931829786378
 31
0.0
  0
LINE
  8
ITEM_50
 10
41.88524768543437
 20
200.4158320296351
 30
0.0
 11
1.885247685434372
 21
200.4158320296351
 31
0.0
  0
LINE
  8
ITEM_STPG
 10
46.88524768543439
 20
224.704508
 30
0.0
 11
-0.3829235467338634
 21
224.704508
 31
0.0
  0
LINE
  8
0
 10
70.76146199999999
 20
271.3136219148938
 30
0.0
 11
70.76146199999999
 21
311.3136219148938
 31
0.0
  0
LINE
  8
0
 10
70.76146199999998
 20
170.0953940851061
 30
0.0
 11
70.76146199999999
 21
130.0953940851062
 31
0.0
  0
LINE
  8
ITEM_STPG
 10
200.5412058087124
 20
224.704508
 30
0.0
 11
153.2730345765442
 21
224.704508
 31
0.0
  0
LINE
  8
ITEM_50
 10
155.5412058087124
 20
214.704508
 30
0.0
 11
195.5412058087124
 21
214.704508
 31
0.0
  0
LINE
  8
ITEM_50
 10
155.5412058087124
 20
206.704508
 30
0.0
 11
195.5412058087124
 21
206.704508
 31
0.0
  0
LINE
  8
ITEM_50
 10
106.7614619999999
 20
311.3136219148938
 30
0.0
 11
106.7614619999999
 21
271.3136219148938
 31
0.0
  0
LINE
  8
ITEM_50
 10
114.7614619999999
 20
311.3136219148938
 30
0.0
 11
114.7614619999999
 21
271.3136219148938
 31
0.0
  0
POINT
  8
ITEM_HILFE
 10
106.7614619999999
 20
150.0953940851062
 30
0.0
  0
POINT
  8
ITEM_HILFE
 10
175.5412058087124
 20
190.704508
 30
0.0
  0
POINT
  8
ITEM_HILFE
 10
110.7614619999999
 20
291.3136219148938
 30
0.0
  0
POINT
  8
ITEM_HILFE
 10
106.7614619999999
 20
271.3136219148938
 30
0.0
  0
POINT
  8
ITEM_HILFE
 10
106.7614619999999
 20
170.0953940851062
 30
0.0
  0
POINT
  8
ITEM_HILFE
 10
155.5412058087124
 20
224.704508
 30
0.0
  0
POINT
  8
ITEM_HILFE
 10
75.26146199999999
 20
210.704508
 30
0.0
  0
POINT
  8
ITEM_HILFE
 10
70.76146199999999
 20
210.704508
 30
0.0
  0
POINT
  8
ITEM_HILFE
 10
110.7614619999999
 20
190.704508
 30
0.0
  0
POINT
  8
ITEM_HILFE
 10
110.7614619999999
 20
195.204508
 30
0.0
  0
POINT
  8
ITEM_HILFE
 10
195.5412058087124
 20
224.704508
 30
0.0
  0
POINT
  8
ITEM_HILFE
 10
106.7614619999999
 20
224.704508
 30
0.0
  0
POINT
  8
ITEM_HILFE
 10
106.7614619999999
 20
130.0953940851062
 30
0.0
  0
POINT
  8
ITEM_HILFE
 10
106.7614619999999
 20
311.3136219148938
 30
0.0
  0
POINT
  8
ITEM_HILFE
 10
21.88524768543437
 20
190.704508
 30
0.0
  0
POINT
  8
ITEM_HILFE
 10
41.88524768543437
 20
224.7045079999999
 30
0.0
  0
POINT
  8
ITEM_HILFE
 10
1.885247685434379
 20
224.7045079999999
 30
0.0
  0
POINT
  8
ITEM_HILFE
 10
-62.99096662913124
 20
224.704508
 30
0.0
  0
POINT
  8
ITEM_HILFE
 10
-66.99096662913123
 20
195.204508
 30
0.0
  0
POINT
  8
ITEM_HILFE
 10
-66.99096662913123
 20
190.704508
 30
0.0
  0
POINT
  8
ITEM_HILFE
 10
-26.99096662913124
 20
210.704508
 30
0.0
  0
POINT
  8
ITEM_HILFE
 10
-31.49096662913124
 20
210.704508
 30
0.0
  0
ARC
  8
ITEM_50
 10
-72.49096662913123
 20
192.204508
 30
0.0
 40
1.5
 50
270.0
 51
0.0
  0
ARC
  8
ITEM_50
 10
-61.49096662913122
 20
192.204508
 30
0.0
 40
1.5
 50
180.0
 51
270.0
  0
ARC
  8
ITEM_50
 10
-28.49096662913124
 20
216.204508
 30
0.0
 40
1.5
 50
270.0
 51
0.0
  0
ARC
  8
ITEM_50
 10
-28.49096662913124
 20
205.204508
 30
0.0
 40
1.5
 50
359.9999999999999
 51
90.0
  0
LINE
  8
ITEM_50
 10
-72.49096662913123
 20
190.704508
 30
0.0
 11
-83.49096662913123
 21
190.704508
 31
0.0
  0
LINE
  8
ITEM_50
 10
-30.49096662913124
 20
190.704508
 30
0.0
 11
-61.49096662913122
 21
190.704508
 31
0.0
  0
LINE
  8
ITEM_50
 10
-26.99096662913124
 20
205.204508
 30
0.0
 11
-26.99096662913125
 21
194.204508
 31
0.0
  0
LINE
  8
ITEM_50
 10
-26.99096662913124
 20
247.204508
 30
0.0
 11
-26.99096662913124
 21
216.204508
 31
0.0
  0
LINE
  8
ITEM_50
 10
-86.99096662913123
 20
200.4158320296351
 30
0.0
 11
-86.99096662913123
 21
194.204508
 31
0.0
  0
LINE
  8
ITEM_50
 10
-86.99096662913123
 20
247.204508
 30
0.0
 11
-86.99096662913123
 21
200.9931829786378
 31
0.0
  0
LINE
  8
ITEM_50
 10
-36.70229065876635
 20
250.704508
 30
0.0
 11
-30.49096662913124
 21
250.704508
 31
0.0
  0
LINE
  8
ITEM_50
 10
-83.49096662913123
 20
250.704508
 30
0.0
 11
-37.27964160776911
 21
250.704508
 31
0.0
  0
CIRCLE
  8
ITEM_50
 10
-62.99096662913124
 20
224.704508
 30
0.0
 40
10.0
  0
CIRCLE
  8
ITEM_50
 10
-62.99096662913124
 20
224.704508
 30
0.0
 40
15.0
  0
CIRCLE
  8
ITEM_50
 10
-62.99096662913124
 20
224.704508
 30
0.0
 40
14.0
  0
LINE
  8
ITEM_STPG
 10
-45.10416562913125
 20
224.704508
 30
0.0
 11
-81.18562468506777
 21
224.704508
 31
0.0
  0
LINE
  8
ITEM_STPG
 10
-62.99096662913124
 20
242.5913089999999
 30
0.0
 11
-62.99096662913124
 21
206.2165559999999
 31
0.0
  0
LINE
  8
ITEM_STPG
 10
-62.99096662913124
 20
242.5913089999999
 30
0.0
 11
-62.99096662913124
 21
206.2165559999999
 31
0.0
  0
CIRCLE
  8
ITEM_50
 10
-80.99096662913123
 20
244.704508
 30
0.0
 40
3.399999999999999
  0
CIRCLE
  8
ITEM_50
 10
-80.99096662913123
 20
204.704508
 30
0.0
 40
3.399999999999999
  0
ARC
  8
ITEM_50
 10
-83.49096662913123
 20
247.204508
 30
0.0
 40
3.5
 50
90.0
 51
180.0
  0
ARC
  8
ITEM_50
 10
-83.49096662913123
 20
194.204508
 30
0.0
 40
3.5
 50
180.0
 51
270.0
  0
ARC
  8
ITEM_50
 10
-30.49096662913124
 20
194.204508
 30
0.0
 40
3.5
 50
270.0
 51
0.0
  0
LINE
  8
ITEM_50
 10
-26.99096662913124
 20
194.204508
 30
0.0
 11
-26.99096662913124
 21
199.0375369999999
 31
0.0
  0
ARC
  8
ITEM_50
 10
-30.49096662913124
 20
247.204508
 30
0.0
 40
3.5
 50
0.0
 51
90.0
  0
LINE
  8
ITEM_50
 10
-28.49096662913124
 20
214.704508
 30
0.0
 11
-30.49096662913124
 21
214.704508
 31
0.0
  0
ARC
  8
ITEM_50
 10
-30.49096662913124
 20
215.704508
 30
0.0
 40
1.0
 50
180.0
 51
270.0
  0
LINE
  8
ITEM_50
 10
-31.49096662913124
 20
215.704508
 30
0.0
 11
-31.49096662913124
 21
219.704508
 31
0.0
  0
ARC
  8
ITEM_50
 10
-32.49096662913124
 20
219.704508
 30
0.0
 40
1.0
 50
0.0
 51
90.0
  0
ARC
  8
ITEM_50
 10
-18.39096662913124
 20
200.364508
 30
0.0
 40
25.0
 50
126.309188
 51
143.1301019999999
  0
LINE
  8
ITEM_50
 10
-32.49096662913124
 20
220.704508
 30
0.0
 11
-32.60238462913124
 21
220.704508
 31
0.0
  0
ARC
  8
ITEM_50
 10
-32.60238462913124
 20
219.704508
 30
0.0
 40
1.0
 50
90.0
 51
126.309188
  0
ARC
  8
ITEM_50
 10
-35.19096662913124
 20
212.964508
 30
0.0
 40
4.0
 50
143.1301019999999
 51
180.0
  0
LINE
  8
ITEM_50
 10
-39.19096662913124
 20
212.964508
 30
0.0
 11
-39.19096662913124
 21
208.444508
 31
0.0
  0
ARC
  8
ITEM_50
 10
-35.19096662913124
 20
208.444508
 30
0.0
 40
4.0
 50
180.0
 51
216.869898
  0
ARC
  8
ITEM_50
 10
-18.39096662913124
 20
221.044508
 30
0.0
 40
25.0
 50
216.869898
 51
233.6908119999999
  0
ARC
  8
ITEM_50
 10
-32.49096662913124
 20
201.704508
 30
0.0
 40
1.0
 50
270.0
 51
0.0
  0
ARC
  8
ITEM_50
 10
-32.60238462913124
 20
201.704508
 30
0.0
 40
1.0
 50
233.6908119999999
 51
270.0
  0
LINE
  8
ITEM_50
 10
-31.49096662913124
 20
205.704508
 30
0.0
 11
-31.49096662913124
 21
201.704508
 31
0.0
  0
ARC
  8
ITEM_50
 10
-30.49096662913124
 20
205.704508
 30
0.0
 40
1.0
 50
90.0
 51
180.0
  0
LINE
  8
ITEM_50
 10
-28.49096662913124
 20
206.704508
 30
0.0
 11
-30.49096662913124
 21
206.704508
 31
0.0
  0
LINE
  8
ITEM_50
 10
-62.99096662913122
 20
192.204508
 30
0.0
 11
-62.99096662913124
 21
194.204508
 31
0.0
  0
ARC
  8
ITEM_50
 10
-61.99096662913124
 20
194.204508
 30
0.0
 40
1.0
 50
90.0
 51
180.0
  0
LINE
  8
ITEM_50
 10
-61.99096662913124
 20
195.204508
 30
0.0
 11
-57.99096662913124
 21
195.204508
 31
0.0
  0
ARC
  8
ITEM_50
 10
-57.99096662913124
 20
196.204508
 30
0.0
 40
1.0
 50
270.0
 51
0.0
  0
ARC
  8
ITEM_50
 10
-77.33096662913123
 20
182.104508
 30
0.0
 40
25.0
 50
36.30918799999999
 51
53.130102
  0
LINE
  8
ITEM_50
 10
-56.99096662913124
 20
196.204508
 30
0.0
 11
-56.99096662913124
 21
196.3159259999999
 31
0.0
  0
ARC
  8
ITEM_50
 10
-57.99096662913124
 20
196.3159259999999
 30
0.0
 40
1.0
 50
0.0
 51
36.30918799999999
  0
ARC
  8
ITEM_50
 10
-64.73096662913124
 20
198.9045079999999
 30
0.0
 40
4.0
 50
53.130102
 51
90.0
  0
LINE
  8
ITEM_50
 10
-64.73096662913124
 20
202.9045079999999
 30
0.0
 11
-69.25096662913125
 21
202.9045079999999
 31
0.0
  0
ARC
  8
ITEM_50
 10
-69.25096662913125
 20
198.9045079999999
 30
0.0
 40
4.0
 50
90.0
 51
126.869898
  0
ARC
  8
ITEM_50
 10
-56.65096662913123
 20
182.104508
 30
0.0
 40
25.0
 50
126.869898
 51
143.6908119999999
  0
ARC
  8
ITEM_50
 10
-75.99096662913123
 20
196.204508
 30
0.0
 40
1.0
 50
180.0
 51
270.0
  0
ARC
  8
ITEM_50
 10
-75.99096662913123
 20
196.3159259999999
 30
0.0
 40
1.0
 50
143.6908119999999
 51
180.0
  0
LINE
  8
ITEM_50
 10
-71.99096662913123
 20
195.204508
 30
0.0
 11
-75.99096662913123
 21
195.204508
 31
0.0
  0
ARC
  8
ITEM_50
 10
-71.99096662913123
 20
194.204508
 30
0.0
 40
1.0
 50
0.0
 51
90.0
  0
LINE
  8
ITEM_50
 10
-70.99096662913123
 20
192.204508
 30
0.0
 11
-70.99096662913123
 21
194.204508
 31
0.0
  0
LINE
  8
ITEM_50
 10
-86.99096662913123
 20
200.9931829786378
 30
0.0
 11
-86.49096662913123
 21
200.704508
 31
0.0
  0
LINE
  8
ITEM_50
 10
-86.49096662913123
 20
200.704508
 30
0.0
 11
-86.99096662913123
 21
200.4158320296351
 31
0.0
  0
LINE
  8
ITEM_50
 10
-36.99096662913124
 20
250.204508
 30
0.0
 11
-36.70229065876636
 21
250.704508
 31
0.0
  0
LINE
  8
ITEM_50
 10
-37.2796416077691
 20
250.704508
 30
0.0
 11
-36.99096662913124
 21
250.204508
 31
0.0
  0
ARC
  8
ITEM_50
 10
-62.99096662913124
 20
224.704508
 30
0.0
 40
23.0
 50
290.5990209999999
 51
315.9430919999999
  0
ARC
  8
ITEM_50
 10
-77.24793762913125
 20
182.104508
 30
0.0
 40
28.0
 50
26.95774899999999
 51
39.78774699999998
  0
ARC
  8
ITEM_50
 10
-45.02472962913125
 20
207.320195
 30
0.0
 40
2.0
 50
27.40289999999998
 51
135.943092
  0
ARC
  8
ITEM_50
 10
-54.19532562913125
 20
201.3028689999999
 30
0.0
 40
2.0
 50
110.5990209999999
 51
219.787747
  0
ARC
  8
ITEM_50
 10
-50.50770562913124
 20
195.704508
 30
0.0
 40
2.0
 50
206.9577489999999
 51
270.0
  0
ARC
  8
ITEM_50
 10
-18.39096662913124
 20
221.1275369999999
 30
0.0
 40
28.0
 50
207.4028999999999
 51
214.9152059999999
  0
LINE
  8
ITEM_50
 10
-40.99096662913124
 20
203.9566309999999
 30
0.0
 11
-40.99096662913124
 21
195.704508
 31
0.0
  0
LINE
  8
ITEM_50
 10
-42.99096662913124
 20
193.704508
 30
0.0
 11
-50.50770562913124
 21
193.704508
 31
0.0
  0
ARC
  8
ITEM_50
 10
-42.99096662913124
 20
203.9566309999999
 30
0.0
 40
2.0
 50
0.0
 51
34.91520600000001
  0
ARC
  8
ITEM_50
 10
-42.99096662913124
 20
195.704508
 30
0.0
 40
2.0
 50
270.0
 51
0.0
  0
ARC
  8
ITEM_50
 10
-62.99096662913124
 20
224.704508
 30
0.0
 40
23.0
 50
5.969555000000006
 51
40.54160200000001
  0
LINE
  8
ITEM_50
 10
-43.15226162913125
 20
241.3045079999999
 30
0.0
 11
-44.75254562913125
 21
241.3045079999999
 31
0.0
  0
LINE
  8
ITEM_50
 10
-29.99096662913124
 20
239.3045079999999
 30
0.0
 11
-29.99096662913124
 21
227.3045079999999
 31
0.0
  0
ARC
  8
ITEM_50
 10
-31.99096662913124
 20
239.3045079999999
 30
0.0
 40
2.0
 50
0.0
 51
90.0
  0
ARC
  8
ITEM_50
 10
-40.99096662913124
 20
244.704508
 30
0.0
 40
3.399999999999999
 50
126.031879
 51
234.735611
  0
ARC
  8
ITEM_50
 10
-44.75254562913125
 20
240.3045079999999
 30
0.0
 40
1.0
 50
90.0
 51
220.5416019999999
  0
ARC
  8
ITEM_50
 10
-40.99096662913124
 20
244.704508
 30
0.0
 40
3.399999999999999
 50
305.2643899999999
 51
53.96812100000001
  0
LINE
  8
ITEM_50
 10
-38.12653462913124
 20
225.3045079999999
 30
0.0
 11
-31.99096662913124
 21
225.3045079999999
 31
0.0
  0
ARC
  8
ITEM_50
 10
-31.99096662913124
 20
227.3045079999999
 30
0.0
 40
2.0
 50
270.0
 51
0.0
  0
LINE
  8
ITEM_50
 10
-38.99096662913124
 20
248.704508
 30
0.0
 11
-42.99096662913124
 21
248.704508
 31
0.0
  0
LINE
  8
ITEM_50
 10
-38.99096662913124
 20
248.704508
 30
0.0
 11
-38.99096662913124
 21
247.4540529999999
 31
0.0
  0
LINE
  8
ITEM_50
 10
-42.99096662913124
 20
248.704508
 30
0.0
 11
-42.99096662913124
 21
247.4540529999999
 31
0.0
  0
ARC
  8
ITEM_50
 10
-43.15225962913124
 20
241.6479769999999
 30
0.0
 40
0.34347
 50
269.999636
 51
54.73560000000001
  0
ARC
  8
ITEM_50
 10
-38.82967362913124
 20
241.6479769999999
 30
0.0
 40
0.34347
 50
125.26439
 51
269.399112
  0
LINE
  8
ITEM_50
 10
-31.99096662913124
 20
241.3045079999999
 30
0.0
 11
-38.83327562913124
 21
241.3045079999999
 31
0.0
  0
LINE
  8
ITEM_50
 10
-26.99096662913124
 20
247.204508
 30
0.0
 11
-26.99096662913124
 21
226.7875369999999
 31
0.0
  0
ARC
  8
ITEM_50
 10
-38.12653462913124
 20
227.3045079999999
 30
0.0
 40
2.0
 50
185.969555
 51
270.0
  0
POINT
  8
ITEM_HILFE
 10
-86.99096662913123
 20
250.704508
 30
0.0
  0
POINT
  8
ITEM_HILFE
 10
-26.99096662913124
 20
250.704508
 30
0.0
  0
POINT
  8
ITEM_HILFE
 10
-26.99096662913124
 20
190.704508
 30
0.0
  0
POINT
  8
ITEM_HILFE
 10
-86.99096662913123
 20
190.704508
 30
0.0
  0
POINT
  8
ITEM_HILFE
 10
70.76146199999999
 20
250.704508
 30
0.0
  0
POINT
  8
ITEM_HILFE
 10
130.7614619999999
 20
250.704508
 30
0.0
  0
POINT
  8
ITEM_HILFE
 10
130.7614619999999
 20
190.704508
 30
0.0
  0
POINT
  8
ITEM_HILFE
 10
70.76146199999999
 20
190.704508
 30
0.0
  0
ENDSEC
  0
EOF
